Return to the Suzanne Vega chords page

Printable version of this song Transpose this song up or down:

TOM'S DINER (Suzanne Vega)
--------------------------
[Obviously, this is for the instrumental thing at the end of _Solitude_
 _Standing_, since the one with words doesn't really have chords.  It's
 not quite the same rhythm, either.  This tab is really here just to show
 the melody; play it with whatever fingerings you want.]

[Actually in Fm; capo 1.]

       Em               C                Em               C
E ----|----------------|----------------|----------------|----------------|
B ----|----------------|----------------|----------------|----------------|
G ----|0-4-----0-4---4-|2=0-2=02--0-----|0-4-----0-4---4-|2=0-2=02--------|
D 2-4-|----2-4-----2---|------------2-4-|----2-4-----2---|------------2-1-|
A ----|----------------|----------------|----------------|----------------|
E ----|----------------|----------------|----------------|----------------|
  ^ .  ^ . ^ . ^ . ^ .  ^ . ^ . ^ . ^ .  ^ . ^ . ^ . ^ .  ^ . ^ . ^ . ^ .

  G                F(#4)            Em               B7
E ----------------|----------------|----------------|----------------|
B ----------------|--0-0---1=0-----|0=1-----0=1---1-|1=0-0---0-------|
G --4-4-2-4-2-----|------2-----0=2-|----0=2-----0---|------2---------|
D 0-----------0---|----------------|----------------|----------------|
A --------------4-|3---------------|----------------|----------------|
E ----------------|----------------|----------------|----------------|
  ^ . ^ . ^ . ^ .  ^ . ^ . ^ . ^ .  ^ . ^ . ^ . ^ .  ^ . ^ . ^ . ^ .




- transcribed by Adam Schneider, http://adamschneider.net/

Return to the Suzanne Vega chords page