Return to the Miscellaneous chords page

Printable version of this song Transpose this song up or down:

JUST LIKE THE WEATHER (Suzy Bogguss, Doug Crider)
-------------------------------------------------
[Play in C, or capo 5 and play in G; Bogguss plays it in C.]

C   C   Am   Am   C   C   Am   Am
[intro]

C             F             Am      G
  The wind is blowing from a new direction
C                       F           G   G
  You're thinking 'bout going, I know
C                  F           Am             G
  It's been a long season, and hard on our affections
F                 F            G   G
  But that's no reason to let go

    C   F/C              C       C - C/B
You change just like the weather
        Am          Am                  G   G
But the weather you know will always change
       C  C7/Bb       F      F
If you stay it'll get better
    C         G                C    C   Am   Am   C   C   Am   Am
Wherever you go, it's bound to rain

C                 F    Am                G
  So put on your jacket and stand your ground
C               F                  G   G
  Love's gonna have its highs and lows
C                 F           Am               G
  If we turn and face it, the wind will come around
F                     F                G   G
  You don't have to chase it when it blows

    C   F/C              C       C - C/B
You change just like the weather
        Am          Am                  G   G
But the weather you know will always change
       C  C7/Bb       F      F
If you stay it'll get better
    C         G                 C   F   Am   G   F   F   G   G
Wherever you go, it's bound to rain [guitar solo]

    C   F/C              C       C - C/B
You change just like the weather
        Am          Am                  G   G
But the weather you know will always change
       C  C7/Bb       F      F
If you stay it'll get better
    C         G [stop]         C    C   Am   Am
Wherever you go, it's bound to rain
      C   C              Am      Am   C.
You change just like the weather




GUITAR SOLO:

  C                F                Am               G
E ----------------|----------------|----------------|----------------|
B ----------------|----------------|----------------|----------------|
G ----------------|-(0)-(0)-(0)-(0)|----------------|(0)-------------|
D ----2---0-2---3-|----2---0-------|----2---0-2---0-|----------------|
A ------3---------|------------3---|------3---------|----3---2-0-----|
E ----------------|----------------|----------------|------------3---|
  ^ . ^ . ^ . ^ .  ^ . ^ . ^ . ^ .  ^ . ^ . ^ . ^ .  ^ . ^ . ^ . ^ .

  F                F                G                G
E ----------------|----------------|----------------|----------------|
B ----------------|----------------|----------------|----------------|
G ----2---0-2---5-|--2---0---2---5-|--4-2-0---------|---------(0-2)--|
D 3-----3---------|----------------|--------3-2-0---|----0-2-3-------|
A ----------------|----------------|--------------3-|2-3-------------|
E ----------------|----------------|----------------|----------------|
  ^ . ^ . ^ . ^ .  ^ . ^ . ^ . ^ .  ^ . ^ . ^ . ^ .  ^ . ^ . ^ . ^ .



- transcribed by Adam Schneider, http://adamschneider.net/

Return to the Miscellaneous chords page