Harry Potter Guitar Chords & Tablature: "Hedwig's Theme (from "Harry Potter")"

Return to the Miscellaneous chords page

Printable version of this song Transpose this song up or down:
HEDWIG'S THEME (from the "Harry Potter" movies)
-----------------------------------------------

        Am           Am           Dm/A         E/A
E -----|------------|--------0---|------------|------------|
B -----|------1-0---|------------|3-----------|0-----------|
G -----|2-----------|2-----------|------------|------------|
D -2---|------------|------------|------------|------------|
A -----|0-----------|0-----------|0-----------|0-----------|
E -----|------------|------------|------------|------------|
   .    ^   .   .    ^   .   .    ^   .   .    ^   .   .

  Am           Abm          Am           Am
E ------------|------------|------------|------------|
B ------1-0---|------------|------------|------------|
G 2-----------|1-------3---|------------|------------|
D ------------|1-----------|2-----------|2-------2---|
A 0-----------|------------|0-------3---|------------|
E ------------|--------0---|------------|--------0---|
  ^   .   .    ^   .   .    ^   .   .    ^   .   .

  Am           Am           Cm      Bm   Bbm
E ------------|--------0---|3-------2---|1-----------|
B ------1-0---|------------|4-----------|2-------2---|
G 2-----------|2-----------|5-----------|3-----------|
D ------------|------------|5-----------|3-----------|
A 0-----------|0-----------|3-----------|1-----------|
E ------------|------------|------------|------------|
  ^   .   .    ^   .   .    ^   .   .    ^   .   .

  Dm           B7           Am           Am           Am
E 1-----0-----|------------|------------|------------|-
B 3-------4---|--------1---|------------|------------|-
G 2-----------|------------|2-----------|------------|-
D 0-----------|1-----------|------------|2-----------|-
A ------------|2-----------|0-------3---|------------|0
E ------------|2-----------|------------|--------0---|-
  ^   .   .    ^   .   .    ^   .   .    ^   .   .



- transcribed by Adam Schneider, http://adamschneider.net/

Return to the Miscellaneous chords page