Return to the Miscellaneous chords page

Printable version of this song Transpose this song up or down:

BIZARRE LOVE TRANGLE (Gilbert/Hook/Morris/Sumner/Hague)
-------------------------------------------------------
[Capo 1.]
[See tab at end for chord fingerings.]

C
[intro]

Fmaj7            G
  Every time I think of you
        Em                        F
I get a shot right through into a bolt of blue
        F                          G
It's no problem of mine but it's a problem I find
Em                    F      -     F(#4)
Living a life that I can't leave behind

F                     G
  There's no sense in telling me
    Em                     F
The wisdom of a fool won't set you free
               F                              G
But that's the way that it goes and it's what nobody knows
    Em             F
And every day my confusion grows


Fmaj7         G(9)
Every time I see you falling
 Em                F  -  F(#4)
I get down on my knees and pray
    F   -   F(#4)     G
I'm waiting for that final moment
   Em                   F
You say the words that I can't say

C
[instr.]

I feel fine and I feel good
I feel like I never should
Whenever I get this way I just don't know what to say
Why can't we be ourselves like we were yesterday

I'm not sure what this could mean
I don't think you're what you seem
I do admit to myself that if I hurt someone else
Then I'd never see just what we're meant to be

Every time I see you falling
I get down on my knees and pray
I'm waiting for that final moment
You say the words that I can't say

Every time I see you falling
I'll get down on my knees and pray
I'm waiting for that final moment
You say the words that I can't say  [end on C]




TAB:

(Corrections are welcome!)

This is for the first verse and chorus; the second is similar.

  C
E ------------------------|
B ------------1-----------|
G --------0-------0-------|
D ----2---------------2---|
A 3-----------------------|
E (triplets)--------------|
  ^  .  ^  .  ^  .  ^  .
[intro]

  Fmaj7            G                Em               F
E ------0---------|----------------|----------------|----------------|
B ----1-----1---1-|3-----3-----3---|0-----0-----0---|1-----1-----1---|
G --2---------2---|--0-----0-----0-|--0-----0-----0-|--2-----2-----2-|
D 3---------------|----0-----0-----|----2-----2-----|----3-----3-----|
A ----------------|----------------|----------------|----------------|
E ----------------|----------------|----------------|----------------|
  ^ . ^ . ^ . ^ .  ^ . ^ . ^ . ^ .  ^ . ^ . ^ . ^ .  ^ . ^ . ^ . ^ .
 Every time I think of you I get a shot right through into a bolt of blue

  F                G                Em               F     F(#4)
E ----------------|--------3-------|--------0-------|----------------|
B 1-----1-----1---|3-----3---------|0-----0-------0-|1-----0---------|
G --2-----2-----0-|--0---------0---|--0---------0---|--2---------2---|
D ----3-----3-----|----0---------0-|----2-----------|----3---------3-|
A ----------------|----------------|----------------|----------------|
E ----------------|----------------|----------------|----------------|
  ^ . ^ . ^ . ^ .  ^ . ^ . ^ . ^ .  ^ . ^ . ^ . ^ .  ^ . ^ . ^ . ^ .
 It's no problem of mine but it's a problem I find,
                                   living a life that I can't leave behind

  F                G                Em               F
E ----------------|--------3-------|----------------|----------------|
B 1-----1-----1---|3-----3---3-----|0-----0-----0---|1-----1-----1---|
G --2-----2-----2-|--0---------0---|--0-----0-----0-|--2-------2---2-|
D ----3-----3-----|----0---------0-|----2-----2-----|----3-----------|
A ----------------|----------------|----------------|----------------|
E ----------------|----------------|----------------|----------------|
  ^ . ^ . ^ . ^ .  ^ . ^ . ^ . ^ .  ^ . ^ . ^ . ^ .  ^ . ^ . ^ . ^ .
 There's no sense in telling me, the wisdom of a fool won't set you free

  F                G                Em               F
E ----------------|--------3-------|----------------|----------------|
B 1-----1-----1---|3-----3---3-----|0-----0-----0---|1-----1-----1---|
G --2-----2-----2-|--0---------0---|--0-----0-----0-|--2-------2---2-|
D ----3-----3-----|----0---------0-|----2-----2-----|----3-----------|
A ----------------|----------------|----------------|----------------|
E ----------------|----------------|----------------|----------------|
  ^ . ^ . ^ . ^ .  ^ . ^ . ^ . ^ .  ^ . ^ . ^ . ^ .  ^ . ^ . ^ . ^ .
 But that's the way that it goes and it's what nobody knows,
                                   and every day my confusion grows

  Fmaj7            G(9)             Em               F     F(#4)
E ----------0-----|--------5-------|--------3-------|----------------|
B 1-------1---1---|3-----3---------|0-----0-------0-|1-----0---------|
G ------2-------2-|--4---------4---|--0---------0---|--2---------2---|
D ----3-----------|----5---------5-|----2-----------|----3-----3---3-|
A ----------------|----------------|----------------|----------------|
E ----------------|----------------|----------------|----------------|
  ^ . ^ . ^ . ^ .  ^ . ^ . ^ . ^ .  ^ . ^ . ^ . ^ .  ^ . ^ . ^ . ^ .
 Every time I see you falling, I get down on my knees and pray

  F     F(#4)      G                Em               F
E ----------------|----------------|--------0-------|----------------|
B 1-----0-----0---|3-----0---------|0-----0-------0-|1-----1-----1---|
G --2-----2-----2-|--4---------4---|--0---------0---|--2-----2-----0-|
D ----3-----3-----|----5-----5---5-|----2-----------|----3-----3-----|
A ----------------|----------------|----------------|----------------|
E ----------------|----------------|----------------|----------------|
  ^ . ^ . ^ . ^ .  ^ . ^ . ^ . ^ .  ^ . ^ . ^ . ^ .  ^ . ^ . ^ . ^ .
 I'm waiting for that final moment you say the words that I can't say




- transcribed by Adam Schneider, http://adamschneider.net/

Return to the Miscellaneous chords page